ISO-10303-21;
HEADER;
FILE_DESCRIPTION (( 'STEP AP203' ),
    '1' );
FILE_NAME ('BK7-LNPBSC-25.4-633.STEP',
    '2021-01-05T02:02:29',
    ( '' ),
    ( '' ),
    'SwSTEP 2.0',
    'SolidWorks 2020',
    '' );
FILE_SCHEMA (( 'CONFIG_CONTROL_DESIGN' ));
ENDSEC;

DATA;
#1 = FACE_OUTER_BOUND ( 'NONE', #79, .T. ) ;
#2 = ORIENTED_EDGE ( 'NONE', *, *, #193, .T. ) ;
#3 = DIRECTION ( 'NONE',  ( 0.000000000000000000, 0.000000000000000000, 1.000000000000000000 ) ) ;
#4 = AXIS2_PLACEMENT_3D ( 'NONE', #287, #65, #298 ) ;
#5 = ORIENTED_EDGE ( 'NONE', *, *, #40, .T. ) ;
#6 = PERSON_AND_ORGANIZATION ( #280, #296 ) ;
#7 = APPROVAL ( #285, 'UNSPECIFIED' ) ;
#8 = CARTESIAN_POINT ( 'NONE',  ( -12.69999999999999574, -12.69999999999999396, 12.69999999999999929 ) ) ;
#9 = ORIENTED_EDGE ( 'NONE', *, *, #251, .F. ) ;
#10 = DIRECTION ( 'NONE',  ( 0.000000000000000000, 0.000000000000000000, 1.000000000000000000 ) ) ;
#11 = FACE_OUTER_BOUND ( 'NONE', #299, .T. ) ;
#12 = DIRECTION ( 'NONE',  ( 1.000000000000000000, -2.220446049250312588E-16, 0.000000000000000000 ) ) ;
#13 = PLANE ( 'NONE',  #262 ) ;
#14 = COORDINATED_UNIVERSAL_TIME_OFFSET ( 8, 0, .AHEAD. ) ;
#15 = DIRECTION ( 'NONE',  ( -0.000000000000000000, 0.000000000000000000, 1.000000000000000000 ) ) ;
#16 = ADVANCED_FACE ( 'NONE', ( #11 ), #59, .F. ) ;
#17 = CARTESIAN_POINT ( 'NONE',  ( -12.69999999999999574, -12.69999999999999396, -12.69999999999999929 ) ) ;
#18 = EDGE_CURVE ( 'NONE', #173, #164, #185, .T. ) ;
#19 = CARTESIAN_POINT ( 'NONE',  ( -12.70000000000000284, 12.70000000000000284, -12.69999999999999929 ) ) ;
#20 = LINE ( 'NONE', #116, #47 ) ;
#21 =( NAMED_UNIT ( * ) SI_UNIT ( $, .STERADIAN. ) SOLID_ANGLE_UNIT ( ) );
#22 = CC_DESIGN_PERSON_AND_ORGANIZATION_ASSIGNMENT ( #87, #302, ( #123 ) ) ;
#23 = APPROVAL_ROLE ( '' ) ;
#24 = VERTEX_POINT ( 'NONE', #109 ) ;
#25 = CARTESIAN_POINT ( 'NONE',  ( 0.000000000000000000, 0.000000000000000000, 12.69999999999999929 ) ) ;
#26 = EDGE_LOOP ( 'NONE', ( #125, #300, #127 ) ) ;
#27 = ORIENTED_EDGE ( 'NONE', *, *, #146, .T. ) ;
#28 = VECTOR ( 'NONE', #235, 1000.000000000000000 ) ;
#29 = DATE_AND_TIME ( #274, #256 ) ;
#30 = SHAPE_DEFINITION_REPRESENTATION ( #112, #178 ) ;
#31 = VERTEX_POINT ( 'NONE', #56 ) ;
#32 = DIRECTION ( 'NONE',  ( -0.000000000000000000, 1.000000000000000000, -0.000000000000000000 ) ) ;
#33 = PERSON_AND_ORGANIZATION_ROLE ( 'design_supplier' ) ;
#34 = LINE ( 'NONE', #188, #129 ) ;
#35 = CARTESIAN_POINT ( 'NONE',  ( -12.69999999999999751, -12.69999999999999929, 12.69999999999999929 ) ) ;
#36 = VECTOR ( 'NONE', #94, 999.9999999999998863 ) ;
#37 = EDGE_CURVE ( 'NONE', #255, #270, #34, .T. ) ;
#38 = AXIS2_PLACEMENT_3D ( 'NONE', #25, #126, #172 ) ;
#39 = CARTESIAN_POINT ( 'NONE',  ( 0.000000000000000000, 0.000000000000000000, 12.69999999999999929 ) ) ;
#40 = EDGE_CURVE ( 'NONE', #270, #24, #258, .T. ) ;
#41 = APPROVAL_ROLE ( '' ) ;
#42 = LINE ( 'NONE', #243, #36 ) ;
#43 = CARTESIAN_POINT ( 'NONE',  ( 12.69999999999999574, 12.69999999999999574, -12.69999999999999929 ) ) ;
#44 = DIRECTION ( 'NONE',  ( 0.7071067811865474617, 0.7071067811865474617, 0.000000000000000000 ) ) ;
#45 = APPLICATION_PROTOCOL_DEFINITION ( 'international standard', 'config_control_design', 1994, #159 ) ;
#46 = EDGE_LOOP ( 'NONE', ( #54, #226, #73 ) ) ;
#47 = VECTOR ( 'NONE', #220, 1000.000000000000000 ) ;
#48 = ORIENTED_EDGE ( 'NONE', *, *, #251, .T. ) ;
#49 = EDGE_CURVE ( 'NONE', #173, #153, #215, .T. ) ;
#50 = EDGE_LOOP ( 'NONE', ( #176, #76, #273, #27 ) ) ;
#51 = APPROVAL_DATE_TIME ( #29, #238 ) ;
#52 = ORIENTED_EDGE ( 'NONE', *, *, #260, .F. ) ;
#53 = VECTOR ( 'NONE', #315, 1000.000000000000114 ) ;
#54 = ORIENTED_EDGE ( 'NONE', *, *, #309, .F. ) ;
#55 = FACE_OUTER_BOUND ( 'NONE', #99, .T. ) ;
#56 = CARTESIAN_POINT ( 'NONE',  ( 12.69999999999999929, 12.69999999999999929, 12.69999999999999929 ) ) ;
#57 = VECTOR ( 'NONE', #60, 1000.000000000000000 ) ;
#58 = VECTOR ( 'NONE', #135, 1000.000000000000000 ) ;
#59 = PLANE ( 'NONE',  #148 ) ;
#60 = DIRECTION ( 'NONE',  ( 1.000000000000000000, 0.000000000000000000, 0.000000000000000000 ) ) ;
#61 = DIRECTION ( 'NONE',  ( -0.7071067811865475727, 0.7071067811865475727, 0.000000000000000000 ) ) ;
#62 = UNCERTAINTY_MEASURE_WITH_UNIT (LENGTH_MEASURE( 1.000000000000000082E-05 ), #150, 'distance_accuracy_value', 'NONE');
#63 = LINE ( 'NONE', #17, #290 ) ;
#64 = APPROVAL_ROLE ( '' ) ;
#65 = DIRECTION ( 'NONE',  ( -1.000000000000000000, 0.000000000000000000, 0.000000000000000000 ) ) ;
#66 = LINE ( 'NONE', #89, #253 ) ;
#67 = VECTOR ( 'NONE', #111, 1000.000000000000114 ) ;
#68 = DIRECTION ( 'NONE',  ( -0.000000000000000000, 0.000000000000000000, 1.000000000000000000 ) ) ;
#69 = APPROVAL_PERSON_ORGANIZATION ( #77, #238, #23 ) ;
#70 = FACE_OUTER_BOUND ( 'NONE', #201, .T. ) ;
#71 = DIRECTION ( 'NONE',  ( 1.000000000000000000, 0.000000000000000000, 0.000000000000000000 ) ) ;
#72 = ORIENTED_EDGE ( 'NONE', *, *, #37, .T. ) ;
#73 = ORIENTED_EDGE ( 'NONE', *, *, #144, .F. ) ;
#74 = VECTOR ( 'NONE', #252, 999.9999999999998863 ) ;
#75 = FACE_OUTER_BOUND ( 'NONE', #46, .T. ) ;
#76 = ORIENTED_EDGE ( 'NONE', *, *, #37, .F. ) ;
#77 = PERSON_AND_ORGANIZATION ( #280, #296 ) ;
#78 = ORIENTED_EDGE ( 'NONE', *, *, #106, .T. ) ;
#79 = EDGE_LOOP ( 'NONE', ( #209, #2, #48 ) ) ;
#80 = CC_DESIGN_DATE_AND_TIME_ASSIGNMENT ( #124, #95, ( #301 ) ) ;
#81 = PERSON_AND_ORGANIZATION ( #280, #296 ) ;
#82 = CARTESIAN_POINT ( 'NONE',  ( 12.69999999999999929, 12.69999999999999929, 12.69999999999999929 ) ) ;
#83 = DIRECTION ( 'NONE',  ( 1.000000000000000000, -2.220446049250312588E-16, 0.000000000000000000 ) ) ;
#84 = DIRECTION ( 'NONE',  ( 0.7071067811865475727, 0.7071067811865475727, 0.000000000000000000 ) ) ;
#85 = LINE ( 'NONE', #283, #204 ) ;
#86 = AXIS2_PLACEMENT_3D ( 'NONE', #128, #152, #71 ) ;
#87 = PERSON_AND_ORGANIZATION ( #280, #296 ) ;
#88 = ADVANCED_FACE ( 'NONE', ( #55 ), #107, .F. ) ;
#89 = CARTESIAN_POINT ( 'NONE',  ( 12.69999999999999929, 12.69999999999999929, 12.69999999999999929 ) ) ;
#90 = DATE_AND_TIME ( #134, #145 ) ;
#91 = EDGE_CURVE ( 'NONE', #153, #224, #85, .T. ) ;
#92 = CARTESIAN_POINT ( 'NONE',  ( -12.69999999999999751, -12.69999999999999929, -12.69999999999999929 ) ) ;
#93 = CARTESIAN_POINT ( 'NONE',  ( 12.69999999999999929, 12.69999999999999929, 12.69999999999999929 ) ) ;
#94 = DIRECTION ( 'NONE',  ( -0.7071067811865475727, -0.7071067811865475727, 0.000000000000000000 ) ) ;
#95 = DATE_TIME_ROLE ( 'creation_date' ) ;
#96 = ORIENTED_EDGE ( 'NONE', *, *, #219, .T. ) ;
#97 = APPLICATION_PROTOCOL_DEFINITION ( 'international standard', 'config_control_design', 1994, #314 ) ;
#98 = ORIENTED_EDGE ( 'NONE', *, *, #18, .F. ) ;
#99 = EDGE_LOOP ( 'NONE', ( #156, #250, #257, #78 ) ) ;
#100 = PLANE ( 'NONE',  #223 ) ;
#101 = VERTEX_POINT ( 'NONE', #278 ) ;
#102 = ORIENTED_EDGE ( 'NONE', *, *, #260, .T. ) ;
#103 = CALENDAR_DATE ( 2021, 5, 1 ) ;
#104 = DIRECTION ( 'NONE',  ( -2.220446049250312588E-16, 1.000000000000000000, 0.000000000000000000 ) ) ;
#105 = FACE_OUTER_BOUND ( 'NONE', #50, .T. ) ;
#106 = EDGE_CURVE ( 'NONE', #101, #205, #158, .T. ) ;
#107 = PLANE ( 'NONE',  #119 ) ;
#108 = ORIENTED_EDGE ( 'NONE', *, *, #144, .T. ) ;
#109 = CARTESIAN_POINT ( 'NONE',  ( 12.69999999999999929, 12.69999999999999929, -12.69999999999999929 ) ) ;
#110 = ADVANCED_FACE ( 'NONE', ( #105 ), #284, .F. ) ;
#111 = DIRECTION ( 'NONE',  ( -0.7071067811865474617, -0.7071067811865474617, 0.000000000000000000 ) ) ;
#112 = PRODUCT_DEFINITION_SHAPE ( 'NONE', 'NONE',  #301 ) ;
#113 = APPROVAL_DATE_TIME ( #115, #184 ) ;
#114 = DIRECTION ( 'NONE',  ( 1.000000000000000000, 0.000000000000000000, 0.000000000000000000 ) ) ;
#115 = DATE_AND_TIME ( #103, #304 ) ;
#116 = CARTESIAN_POINT ( 'NONE',  ( -12.69999999999999751, -12.69999999999999929, 12.69999999999999929 ) ) ;
#117 = CARTESIAN_POINT ( 'NONE',  ( 12.69999999999999574, 12.69999999999999574, -12.69999999999999929 ) ) ;
#118 = CARTESIAN_POINT ( 'NONE',  ( 12.69999999999999574, 12.69999999999999574, 12.69999999999999929 ) ) ;
#119 = AXIS2_PLACEMENT_3D ( 'NONE', #189, #61, #84 ) ;
#120 = PERSON_AND_ORGANIZATION_ROLE ( 'creator' ) ;
#121 = EDGE_CURVE ( 'NONE', #181, #270, #161, .T. ) ;
#122 = VECTOR ( 'NONE', #169, 1000.000000000000000 ) ;
#123 = SECURITY_CLASSIFICATION ( '', '', #305 ) ;
#124 = DATE_AND_TIME ( #202, #291 ) ;
#125 = ORIENTED_EDGE ( 'NONE', *, *, #155, .F. ) ;
#126 = DIRECTION ( 'NONE',  ( 0.000000000000000000, 0.000000000000000000, 1.000000000000000000 ) ) ;
#127 = ORIENTED_EDGE ( 'NONE', *, *, #121, .F. ) ;
#128 = CARTESIAN_POINT ( 'NONE',  ( 0.000000000000000000, 0.000000000000000000, 0.000000000000000000 ) ) ;
#129 = VECTOR ( 'NONE', #212, 1000.000000000000000 ) ;
#130 = APPROVAL_PERSON_ORGANIZATION ( #242, #7, #64 ) ;
#131 = DIRECTION ( 'NONE',  ( -2.220446049250312588E-16, 1.000000000000000000, 0.000000000000000000 ) ) ;
#132 = ORIENTED_EDGE ( 'NONE', *, *, #146, .F. ) ;
#133 = ORIENTED_EDGE ( 'NONE', *, *, #193, .F. ) ;
#134 = CALENDAR_DATE ( 2021, 5, 1 ) ;
#135 = DIRECTION ( 'NONE',  ( 0.000000000000000000, 0.000000000000000000, -1.000000000000000000 ) ) ;
#136 = VECTOR ( 'NONE', #308, 1000.000000000000000 ) ;
#137 = PERSON_AND_ORGANIZATION_ROLE ( 'creator' ) ;
#138 = CARTESIAN_POINT ( 'NONE',  ( -12.69999999999999574, -12.69999999999999396, 12.69999999999999929 ) ) ;
#139 = LINE ( 'NONE', #82, #214 ) ;
#140 = ORIENTED_EDGE ( 'NONE', *, *, #49, .T. ) ;
#141 = DIRECTION ( 'NONE',  ( 0.000000000000000000, -0.000000000000000000, 1.000000000000000000 ) ) ;
#142 = AXIS2_PLACEMENT_3D ( 'NONE', #93, #143, #44 ) ;
#143 = DIRECTION ( 'NONE',  ( 0.7071067811865475727, -0.7071067811865475727, 0.000000000000000000 ) ) ;
#144 = EDGE_CURVE ( 'NONE', #101, #173, #162, .T. ) ;
#145 = LOCAL_TIME ( 10, 2, 29.00000000000000000, #165 ) ;
#146 = EDGE_CURVE ( 'NONE', #303, #181, #210, .T. ) ;
#147 = FACE_OUTER_BOUND ( 'NONE', #174, .T. ) ;
#148 = AXIS2_PLACEMENT_3D ( 'NONE', #213, #12, #10 ) ;
#149 = EDGE_CURVE ( 'NONE', #31, #24, #139, .T. ) ;
#150 =( LENGTH_UNIT ( ) NAMED_UNIT ( * ) SI_UNIT ( .MILLI., .METRE. ) );
#151 = EDGE_LOOP ( 'NONE', ( #5, #259, #228, #72 ) ) ;
#152 = DIRECTION ( 'NONE',  ( 0.000000000000000000, 0.000000000000000000, 1.000000000000000000 ) ) ;
#153 = VERTEX_POINT ( 'NONE', #160 ) ;
#154 = MANIFOLD_SOLID_BREP ( 'Í¹Ì¨-À', #232 ) ;
#155 = EDGE_CURVE ( 'NONE', #24, #181, #279, .T. ) ;
#156 = ORIENTED_EDGE ( 'NONE', *, *, #168, .F. ) ;
#157 = PRODUCT_DEFINITION_FORMATION_WITH_SPECIFIED_SOURCE ( 'ANY', '', #236, .NOT_KNOWN. ) ;
#158 = LINE ( 'NONE', #138, #58 ) ;
#159 = APPLICATION_CONTEXT ( 'configuration controlled 3d designs of mechanical parts and assemblies' ) ;
#160 = CARTESIAN_POINT ( 'NONE',  ( 12.69999999999999574, 12.69999999999999574, 12.69999999999999929 ) ) ;
#161 = LINE ( 'NONE', #183, #57 ) ;
#162 = LINE ( 'NONE', #8, #170 ) ;
#163 = EDGE_CURVE ( 'NONE', #255, #31, #66, .T. ) ;
#164 = VERTEX_POINT ( 'NONE', #19 ) ;
#165 = COORDINATED_UNIVERSAL_TIME_OFFSET ( 8, 0, .AHEAD. ) ;
#166 = CARTESIAN_POINT ( 'NONE',  ( -12.69999999999999574, -12.69999999999999396, -12.69999999999999929 ) ) ;
#167 = FACE_OUTER_BOUND ( 'NONE', #26, .T. ) ;
#168 = EDGE_CURVE ( 'NONE', #224, #205, #42, .T. ) ;
#169 = DIRECTION ( 'NONE',  ( 1.000000000000000000, -2.220446049250312588E-16, 0.000000000000000000 ) ) ;
#170 = VECTOR ( 'NONE', #104, 1000.000000000000000 ) ;
#171 = DIRECTION ( 'NONE',  ( 0.000000000000000000, 0.000000000000000000, 1.000000000000000000 ) ) ;
#172 = DIRECTION ( 'NONE',  ( -2.220446049250312588E-16, 1.000000000000000000, 0.000000000000000000 ) ) ;
#173 = VERTEX_POINT ( 'NONE', #269 ) ;
#174 = EDGE_LOOP ( 'NONE', ( #203, #132, #52, #294 ) ) ;
#175 = COORDINATED_UNIVERSAL_TIME_OFFSET ( 8, 0, .AHEAD. ) ;
#176 = ORIENTED_EDGE ( 'NONE', *, *, #121, .T. ) ;
#177 = CC_DESIGN_PERSON_AND_ORGANIZATION_ASSIGNMENT ( #81, #33, ( #157 ) ) ;
#178 = ADVANCED_BREP_SHAPE_REPRESENTATION ( 'BK7-LNPBSC-25.4-633', ( #154, #318, #86 ), #263 ) ;
#179 = MECHANICAL_CONTEXT ( 'NONE', #314, 'mechanical' ) ;
#180 = VECTOR ( 'NONE', #83, 1000.000000000000000 ) ;
#181 = VERTEX_POINT ( 'NONE', #92 ) ;
#182 = DATE_TIME_ROLE ( 'classification_date' ) ;
#183 = CARTESIAN_POINT ( 'NONE',  ( -12.69999999999999751, -12.69999999999999929, -12.69999999999999929 ) ) ;
#184 = APPROVAL ( #229, 'UNSPECIFIED' ) ;
#185 = LINE ( 'NONE', #307, #136 ) ;
#186 = DIRECTION ( 'NONE',  ( 0.000000000000000000, 0.000000000000000000, -1.000000000000000000 ) ) ;
#187 = APPROVAL_PERSON_ORGANIZATION ( #200, #184, #41 ) ;
#188 = CARTESIAN_POINT ( 'NONE',  ( 12.69999999999999929, -12.69999999999999929, 12.69999999999999929 ) ) ;
#189 = CARTESIAN_POINT ( 'NONE',  ( 12.69999999999999574, 12.69999999999999574, 12.69999999999999929 ) ) ;
#190 = DATE_AND_TIME ( #311, #277 ) ;
#191 = CLOSED_SHELL ( 'NONE', ( #88, #16, #266, #316, #319 ) ) ;
#192 = APPROVAL_DATE_TIME ( #90, #7 ) ;
#193 = EDGE_CURVE ( 'NONE', #205, #164, #63, .T. ) ;
#194 = PLANE ( 'NONE',  #4 ) ;
#195 = AXIS2_PLACEMENT_3D ( 'NONE', #39, #15, #114 ) ;
#196 = ADVANCED_FACE ( 'NONE', ( #167 ), #13, .F. ) ;
#197 = DIRECTION ( 'NONE',  ( -2.220446049250312588E-16, 1.000000000000000000, 0.000000000000000000 ) ) ;
#198 = VECTOR ( 'NONE', #32, 1000.000000000000000 ) ;
#199 = FACE_OUTER_BOUND ( 'NONE', #237, .T. ) ;
#200 = PERSON_AND_ORGANIZATION ( #280, #296 ) ;
#201 = EDGE_LOOP ( 'NONE', ( #102, #96, #297 ) ) ;
#202 = CALENDAR_DATE ( 2021, 5, 1 ) ;
#203 = ORIENTED_EDGE ( 'NONE', *, *, #155, .T. ) ;
#204 = VECTOR ( 'NONE', #186, 1000.000000000000000 ) ;
#205 = VERTEX_POINT ( 'NONE', #166 ) ;
#206 = PERSON_AND_ORGANIZATION_ROLE ( 'design_owner' ) ;
#207 = ORIENTED_EDGE ( 'NONE', *, *, #91, .T. ) ;
#208 = CC_DESIGN_DATE_AND_TIME_ASSIGNMENT ( #190, #182, ( #123 ) ) ;
#209 = ORIENTED_EDGE ( 'NONE', *, *, #168, .T. ) ;
#210 = LINE ( 'NONE', #35, #28 ) ;
#211 = DIRECTION ( 'NONE',  ( -0.000000000000000000, -0.000000000000000000, -1.000000000000000000 ) ) ;
#212 = DIRECTION ( 'NONE',  ( -0.000000000000000000, -0.000000000000000000, -1.000000000000000000 ) ) ;
#213 = CARTESIAN_POINT ( 'NONE',  ( -12.69999999999999574, -12.69999999999999396, 12.69999999999999929 ) ) ;
#214 = VECTOR ( 'NONE', #211, 1000.000000000000000 ) ;
#215 = LINE ( 'NONE', #281, #180 ) ;
#216 = CC_DESIGN_PERSON_AND_ORGANIZATION_ASSIGNMENT ( #217, #137, ( #157 ) ) ;
#217 = PERSON_AND_ORGANIZATION ( #280, #296 ) ;
#218 = FACE_OUTER_BOUND ( 'NONE', #151, .T. ) ;
#219 = EDGE_CURVE ( 'NONE', #303, #255, #20, .T. ) ;
#220 = DIRECTION ( 'NONE',  ( 1.000000000000000000, 0.000000000000000000, 0.000000000000000000 ) ) ;
#221 = CARTESIAN_POINT ( 'NONE',  ( 12.69999999999999929, 12.69999999999999929, 12.69999999999999929 ) ) ;
#222 = COORDINATED_UNIVERSAL_TIME_OFFSET ( 8, 0, .AHEAD. ) ;
#223 = AXIS2_PLACEMENT_3D ( 'NONE', #271, #3, #131 ) ;
#224 = VERTEX_POINT ( 'NONE', #43 ) ;
#225 = CARTESIAN_POINT ( 'NONE',  ( -12.69999999999999751, -12.69999999999999929, 12.69999999999999929 ) ) ;
#226 = ORIENTED_EDGE ( 'NONE', *, *, #49, .F. ) ;
#227 = PERSON_AND_ORGANIZATION ( #280, #296 ) ;
#228 = ORIENTED_EDGE ( 'NONE', *, *, #163, .F. ) ;
#229 = APPROVAL_STATUS ( 'not_yet_approved' ) ;
#230 = ORIENTED_EDGE ( 'NONE', *, *, #18, .T. ) ;
#231 = PRODUCT_RELATED_PRODUCT_CATEGORY ( 'detail', '', ( #236 ) ) ;
#232 = CLOSED_SHELL ( 'NONE', ( #241, #110, #293, #275, #196 ) ) ;
#233 = DIRECTION ( 'NONE',  ( 0.000000000000000000, 1.000000000000000000, 0.000000000000000000 ) ) ;
#234 = CC_DESIGN_APPROVAL ( #184, ( #157 ) ) ;
#235 = DIRECTION ( 'NONE',  ( -0.000000000000000000, -0.000000000000000000, -1.000000000000000000 ) ) ;
#236 = PRODUCT ( 'BK7-LNPBSC-25.4-633', 'BK7-LNPBSC-25.4-633', '', ( #179 ) ) ;
#237 = EDGE_LOOP ( 'NONE', ( #9, #98, #140, #207 ) ) ;
#238 = APPROVAL ( #249, 'UNSPECIFIED' ) ;
#239 = DESIGN_CONTEXT ( 'detailed design', #159, 'design' ) ;
#240 = COORDINATED_UNIVERSAL_TIME_OFFSET ( 8, 0, .AHEAD. ) ;
#241 = ADVANCED_FACE ( 'NONE', ( #147 ), #313, .F. ) ;
#242 = PERSON_AND_ORGANIZATION ( #280, #296 ) ;
#243 = CARTESIAN_POINT ( 'NONE',  ( 12.69999999999999574, 12.69999999999999574, -12.69999999999999929 ) ) ;
#244 = DIRECTION ( 'NONE',  ( -0.000000000000000000, 1.000000000000000000, -0.000000000000000000 ) ) ;
#245 = AXIS2_PLACEMENT_3D ( 'NONE', #261, #233, #141 ) ;
#246 = PLANE ( 'NONE',  #276 ) ;
#247 = CARTESIAN_POINT ( 'NONE',  ( 12.69999999999999574, 12.69999999999999574, 12.69999999999999929 ) ) ;
#248 = CC_DESIGN_PERSON_AND_ORGANIZATION_ASSIGNMENT ( #227, #206, ( #236 ) ) ;
#249 = APPROVAL_STATUS ( 'not_yet_approved' ) ;
#250 = ORIENTED_EDGE ( 'NONE', *, *, #91, .F. ) ;
#251 = EDGE_CURVE ( 'NONE', #164, #224, #310, .T. ) ;
#252 = DIRECTION ( 'NONE',  ( -0.7071067811865475727, -0.7071067811865475727, 0.000000000000000000 ) ) ;
#253 = VECTOR ( 'NONE', #244, 1000.000000000000000 ) ;
#254 = LINE ( 'NONE', #247, #74 ) ;
#255 = VERTEX_POINT ( 'NONE', #288 ) ;
#256 = LOCAL_TIME ( 10, 2, 29.00000000000000000, #175 ) ;
#257 = ORIENTED_EDGE ( 'NONE', *, *, #309, .T. ) ;
#258 = LINE ( 'NONE', #306, #198 ) ;
#259 = ORIENTED_EDGE ( 'NONE', *, *, #149, .F. ) ;
#260 = EDGE_CURVE ( 'NONE', #31, #303, #268, .T. ) ;
#261 = CARTESIAN_POINT ( 'NONE',  ( -12.69999999999999751, -12.69999999999999929, 12.69999999999999929 ) ) ;
#262 = AXIS2_PLACEMENT_3D ( 'NONE', #317, #68, #267 ) ;
#263 =( GEOMETRIC_REPRESENTATION_CONTEXT ( 3 ) GLOBAL_UNCERTAINTY_ASSIGNED_CONTEXT ( ( #62 ) ) GLOBAL_UNIT_ASSIGNED_CONTEXT ( ( #150, #295, #21 ) ) REPRESENTATION_CONTEXT ( 'NONE', 'WORKASPACE' ) );
#264 = CC_DESIGN_APPROVAL ( #7, ( #123 ) ) ;
#265 = PLANE ( 'NONE',  #195 ) ;
#266 = ADVANCED_FACE ( 'NONE', ( #199 ), #246, .F. ) ;
#267 = DIRECTION ( 'NONE',  ( 1.000000000000000000, 0.000000000000000000, 0.000000000000000000 ) ) ;
#268 = LINE ( 'NONE', #221, #53 ) ;
#269 = CARTESIAN_POINT ( 'NONE',  ( -12.70000000000000284, 12.70000000000000284, 12.69999999999999929 ) ) ;
#270 = VERTEX_POINT ( 'NONE', #292 ) ;
#271 = CARTESIAN_POINT ( 'NONE',  ( 0.000000000000000000, 0.000000000000000000, -12.69999999999999929 ) ) ;
#272 = CC_DESIGN_PERSON_AND_ORGANIZATION_ASSIGNMENT ( #6, #120, ( #301 ) ) ;
#273 = ORIENTED_EDGE ( 'NONE', *, *, #219, .F. ) ;
#274 = CALENDAR_DATE ( 2021, 5, 1 ) ;
#275 = ADVANCED_FACE ( 'NONE', ( #70 ), #265, .T. ) ;
#276 = AXIS2_PLACEMENT_3D ( 'NONE', #118, #312, #171 ) ;
#277 = LOCAL_TIME ( 10, 2, 29.00000000000000000, #240 ) ;
#278 = CARTESIAN_POINT ( 'NONE',  ( -12.69999999999999574, -12.69999999999999396, 12.69999999999999929 ) ) ;
#279 = LINE ( 'NONE', #289, #67 ) ;
#280 = PERSON ( 'UNSPECIFIED', 'UNSPECIFIED', 'UNSPECIFIED', ('UNSPECIFIED'), ('UNSPECIFIED'), ('UNSPECIFIED') ) ;
#281 = CARTESIAN_POINT ( 'NONE',  ( 12.69999999999999574, 12.69999999999999574, 12.69999999999999929 ) ) ;
#282 = CC_DESIGN_APPROVAL ( #238, ( #301 ) ) ;
#283 = CARTESIAN_POINT ( 'NONE',  ( 12.69999999999999574, 12.69999999999999574, 12.69999999999999929 ) ) ;
#284 = PLANE ( 'NONE',  #245 ) ;
#285 = APPROVAL_STATUS ( 'not_yet_approved' ) ;
#286 = CC_DESIGN_SECURITY_CLASSIFICATION ( #123, ( #157 ) ) ;
#287 = CARTESIAN_POINT ( 'NONE',  ( 12.69999999999999929, 12.69999999999999929, 12.69999999999999929 ) ) ;
#288 = CARTESIAN_POINT ( 'NONE',  ( 12.69999999999999929, -12.69999999999999929, 12.69999999999999929 ) ) ;
#289 = CARTESIAN_POINT ( 'NONE',  ( 12.69999999999999929, 12.69999999999999929, -12.69999999999999929 ) ) ;
#290 = VECTOR ( 'NONE', #197, 1000.000000000000000 ) ;
#291 = LOCAL_TIME ( 10, 2, 29.00000000000000000, #222 ) ;
#292 = CARTESIAN_POINT ( 'NONE',  ( 12.69999999999999929, -12.69999999999999929, -12.69999999999999929 ) ) ;
#293 = ADVANCED_FACE ( 'NONE', ( #218 ), #194, .F. ) ;
#294 = ORIENTED_EDGE ( 'NONE', *, *, #149, .T. ) ;
#295 =( NAMED_UNIT ( * ) PLANE_ANGLE_UNIT ( ) SI_UNIT ( $, .RADIAN. ) );
#296 = ORGANIZATION ( 'UNSPECIFIED', 'UNSPECIFIED', '' ) ;
#297 = ORIENTED_EDGE ( 'NONE', *, *, #163, .T. ) ;
#298 = DIRECTION ( 'NONE',  ( 0.000000000000000000, 0.000000000000000000, 1.000000000000000000 ) ) ;
#299 = EDGE_LOOP ( 'NONE', ( #133, #321, #108, #230 ) ) ;
#300 = ORIENTED_EDGE ( 'NONE', *, *, #40, .F. ) ;
#301 = PRODUCT_DEFINITION ( 'UNKNOWN', '', #157, #239 ) ;
#302 = PERSON_AND_ORGANIZATION_ROLE ( 'classification_officer' ) ;
#303 = VERTEX_POINT ( 'NONE', #225 ) ;
#304 = LOCAL_TIME ( 10, 2, 29.00000000000000000, #14 ) ;
#305 = SECURITY_CLASSIFICATION_LEVEL ( 'unclassified' ) ;
#306 = CARTESIAN_POINT ( 'NONE',  ( 12.69999999999999929, 12.69999999999999929, -12.69999999999999929 ) ) ;
#307 = CARTESIAN_POINT ( 'NONE',  ( -12.70000000000000284, 12.70000000000000284, 12.69999999999999929 ) ) ;
#308 = DIRECTION ( 'NONE',  ( 0.000000000000000000, 0.000000000000000000, -1.000000000000000000 ) ) ;
#309 = EDGE_CURVE ( 'NONE', #153, #101, #254, .T. ) ;
#310 = LINE ( 'NONE', #117, #122 ) ;
#311 = CALENDAR_DATE ( 2021, 5, 1 ) ;
#312 = DIRECTION ( 'NONE',  ( 2.220446049250312588E-16, -1.000000000000000000, 0.000000000000000000 ) ) ;
#313 = PLANE ( 'NONE',  #142 ) ;
#314 = APPLICATION_CONTEXT ( 'configuration controlled 3d designs of mechanical parts and assemblies' ) ;
#315 = DIRECTION ( 'NONE',  ( -0.7071067811865474617, -0.7071067811865474617, 0.000000000000000000 ) ) ;
#316 = ADVANCED_FACE ( 'NONE', ( #75 ), #320, .T. ) ;
#317 = CARTESIAN_POINT ( 'NONE',  ( 0.000000000000000000, 0.000000000000000000, -12.69999999999999929 ) ) ;
#318 = MANIFOLD_SOLID_BREP ( '¾µÏ', #191 ) ;
#319 = ADVANCED_FACE ( 'NONE', ( #1 ), #100, .F. ) ;
#320 = PLANE ( 'NONE',  #38 ) ;
#321 = ORIENTED_EDGE ( 'NONE', *, *, #106, .F. ) ;
ENDSEC;
END-ISO-10303-21;
